Your Music/Tablature/Lyrics/Etc. Thread

DarkSide247DarkSide247 Road Warrior
edited January 2009 in History of Rock
If you've recorded any music, written any lyrics or tablature, post it here...

I'll one of my tabs once I get them tidy them up so they aren't a mess on the forums. Until then, I'll just post this random riff I thought of:

e|---------------------------------------------------------------------------|
B|---------------------------------------------------------------------------|
G|-4-4-4-4-3-2--3-3-2-5---------------------------------------------|
D|-4-4-4-4-3-2--3-3-2-5---------------------------------------------|
A|-2-2-0-2-1-0--1-1-0-3---------------------------------------------|
E|--------------------------------------------------------------------------|

Comments

  • GowienczykGowienczyk Pooper of Parties
    edited January 2009
    I wish I would of tabbed my The Chuck Norris Experience material. ****'d be inane.
  • JukeBoxHeroJukeBoxHero Headliner
    edited January 2009
    G|---------------------------|
    D|----2-4-3-2--------------|
    A|----3-5-4-3--------------| 2x (These are chords if you can't tell).
    E|---------------------------|

    G|---------------------------|
    D|------6-8-7-6------------| 2x
    A|------7-9-8-7------------|
    E|---------------------------|

    G|---------------------------|
    D|----2-4-3-2--------------|
    A|----3-5-4-3--------------|
    E|---------------------------|

    G|---------------------------|
    D|-----2-5--4-7--3-6-------|
    A|----3-----5----4------2-3-| 2x
    E|----------------------3-----|

    G|---------------------------|
    D|----6-9--8-11--7-10----|
    A|---7----9------8----------| 3x
    E|---------------------------|

    G|---------------------------|
    D|-----2-5--4-7--3-6-------|
    A|----3-----5----4------2-3-|
    E|----------------------3-----|

    And that is the beginning of a song I'm writing on my bass. Let me know if anyone need clarity on how the song is being played. Also, guitarists could probably pull off the song fairly well enough to get the groove of the song.
  • EvilMalletEvilMallet Opening Act
    edited January 2009
    lol for bass powerchords.
  • EvilMalletEvilMallet Opening Act
    edited January 2009
    e-------------------------------------------------------
    B-------------------------------------------------------
    G-------------------------------------------------------
    D------8----------8-8-----8-----8--8-----------------
    A------8----------8-8-----8-----8--8----------------5
    E------6----X----6-6-X--6-X--6--6---5--0--5h7---
  • afterstasisafterstasis Washed Up
    edited January 2009
    i posted some music in a few different posts in this here thread...

    http://www.rockband.com/forums/showthread.php?t=96517
  • HungryfreakHungryfreak Headliner
    edited January 2009
    I've started to randomly write lyrics in class, but they're really just fragments. Ill post some new stuff when inspiration strikes.
  • HungryfreakHungryfreak Headliner
    edited January 2009
    Here are some random fragments I like:

    This one started when I drew a scythe that looked kind of like a fang:

    Fang of Cerberus
    Rend my soul
    From Mortal coil

    Blood be my spirit
    Raise it from my flesh
    Cold steel feel my warmth
    I taste the kiss of death

    This one started when I was thinking of "Un Chien Andalou," particularly the scene where the woman's eye is cut. So I started writing lyrics about cutting eyeballs, though I don't like this one as much:

    Blank eyes
    Fall from bleached skull
    Dead stare
    Maddens with its call

    Take a knife
    Take their dead life
    Take them apart
    No longer murder, killing is an art

    I think my stuff's a little bit cliche, but that's me. Hopefully, I can write some more inspired material, haha.
  • Shredder87Shredder87 Road Warrior
    edited January 2009
    I have like a couple short Classical pieces that I wrote, a couple riffs here and there.

    I do have this MIDI file on this one black metal piece that my friend wrote, and has me playing the lead.
  • JukeBoxHeroJukeBoxHero Headliner
    edited January 2009
    EvilMallet;1811372 said:
    lol for bass powerchords.
    Eh, they sound great, and they fit the song's mood.

    Also has anyone tried playing along to the tab I posted? I'm interested in seeing some feedback for it.
  • WhiffleBallTonyWhiffleBallTony Headliner
    edited January 2009
    Here are two riffs I've written that go together in one song:

    PM PM PM
    S S E E E E E E E E E E E E E E E
    E||-----------------------------------------|---------------------------------|
    B||-----------------------------------------|---------------------------------|
    G||-----------------------------------------|---------------------------------|
    D||-----------------------------------------|---------------------------------|
    A||-----------------------------------------|---------------------------------|
    E||--0--0--0--13--0--12--11--0--15--|--0--13--0--0--4--3--2--1--|

    PM PM PM PM PM PM PM PM PM PM PM PM
    S S S S S S S S Q Q S S S S S S S S H
    |----------------------------------------|------------------------------------------|
    |----------------------------------------|------------------------------------------|
    |*---------------------------------------|------------------------------------------|
    |*----------------------------5----2----|----------------------------3------------|
    |-----------------------------5----2----|----------------------------3------------|
    |---0--0--0----0--0--0----3----0----|--0--0--0----0--0--0----1------------|


    PM PM PM PM PM PM
    S S S S S S S S Q Q Q Q Q Q
    ---------------------------------------|---------------------------||
    ---------------------------------------|---------------------------||
    ---------------------------------------|-------------------------*-||
    ----------------------------5----2----|--6----5----4----3----*-||
    ----------------------------5----2----|--6----5----4----3------||
    --0--0--0----0--0--0----3----0----|--4----3----2----1------||


    There's is also a rhythm part to back this which adds some cool dissonance and weird beats to the background.
  • DarkSide247DarkSide247 Road Warrior
    edited January 2009
    JBH: I don't have a bass, but it sounded good on guitar. :o

    WBT: Sound good. I like the use of palm muting.

    Anyways, here a solo I thought of with a little pentatonic run at the end:
    e|-------------------------------------------------------------------------------|
    B|-----------------12b--------------------------------------------------------|
    G|-----------12---------15-12----------------------------------------------|
    D|-12h14-----------------------14b-14p12-------12h14v------------|
    A|-----------------------------------------------14v------------14--------|
    E|------------------------------------------------------------------14v--|

    e|---------------------------------------------------------------------------|
    B|---------------------------------------------------------------------------|
    G|---------------------------------------------------------------------------|
    D|-------15h17-17-15-----15h17--------------15--15-15--15--|
    A|-17v--------------------15--------17tr(19)----15--15-15--15---|
    E|----------------------------------------------------------------------------|

    e|--------------------------------------------------------------14-15-15p14-|
    B|---------------------------------------------------------15---------------------|
    G|-15b17-15-15p13-------15--15-15--15-----14------------------------|
    D|------------------------15v-15--15-15--15------------------------------|
    A|----------------------------------------------------------------------------------|
    E|----------------------------------------------------------------------------------|

    e|---------------------------------------------------------------------------------|
    B|-15v-15--15-15--15-15-12---------------------------------------------|
    G|-------15--15-15--15----------14-12------------------------------------|
    D|----------------------------------------------13-12-10----------------------|
    A|------------------------------------------------------------12-10-------------|
    E|---------------------------------------------------------------------12-10-8v|

    e|-----------------------------------8-8p5----5----------------------------------------------|
    B|---------------------------8h10----------8----8-5-8p5----5----------------------------|
    G|----------------8b10-8------------------------------------7---7-5-7p5--5-------------|
    D|---------8-10--------------------------------------------------------------7--7-5b7-----|
    A|-8h10------------------------------------------------------------------------------------7v|
    E|------------------------------------------------------------------------------------------------|

    EDIT: Well, it turned out awful, but I guess you can figure it out. :|
  • JukeBoxHeroJukeBoxHero Headliner
    edited January 2009
    Thanks for taking a look at my song Darkside, I thought it sounded fairly decent on guitar. I'll try yours and Whiffleball's in a little while.
  • Insane3Insane3 Road Warrior
    edited January 2009
    I'll try to write it, but I use power tabs normally.

    This part is in 6/4
    Note lenght: 3/2 1(stac.) 1/2 1 1/2
    E|-4------4----------x-----4--------4---4----------
    B|-5------5----------x-----5--------5---5----------
    G|-5------5----------x-----5--------5---5---------- 2X
    D|-6------6----------x-----6----6---6---6---6-----
    A|----------------------------------------------------
    E|----------------------------------------------------

    Second part is in 3/4
    Note lenght: 1/2 1/2 1 1
    E|----8-----7----5---------------------------
    B|----8-----7----5--------9------------------
    G|-------------------------7------------------
    D|--------------------------------------------
    A|--------------------------------------------
    E|--------------------------------------------

    And it's freaking long so I'll stop there lol.
    Well you do the same thing but first part is with this chord (Am):
    E|-5
    B|-5
    G|-5
    D|-7

    EDIT: ARGH. I didn't work. Damn it.
  • Insane3Insane3 Road Warrior
    edited January 2009
    JukeBoxHero;1817482 said:
    Thanks for taking a look at my song Darkside, I thought it sounded fairly decent on guitar. I'll try yours and Whiffleball's in a little while.
    Sounds good on guitar. We don't know what's the timing, though. Is it metalish or progish (not the timing, the overall sound)?
  • Insane3Insane3 Road Warrior
    edited January 2009
    I also thought about a chord progression, it sounds quite cool.
    Bm - F - Em - Em 2X
    Em (7th fret) - Bb (6th fret) - Am (5th fret)
    Em (open) - Bb (1st fret) - Am (open)
  • JukeBoxHeroJukeBoxHero Headliner
    edited January 2009
    Insane3;1821259 said:
    Sounds good on guitar. We don't know what's the timing, though. Is it metalish or progish (not the timing, the overall sound)?
    A moderate tempo, think about Light My Fire with it's keyboard bass line in the beginning. Speed it up slightly with a short pause before the last three notes. Light My Fire is sort of a influence on my song, although Ray was using minor triads while I'm using major triads.
  • Insane3Insane3 Road Warrior
    edited January 2009
    JukeBoxHero;1821368 said:
    A moderate tempo, think about Light My Fire with it's keyboard bass line in the beginning. Speed it up slightly with a short pause before the last three notes. Light My Fire is sort of a influence on my song, although Ray was using minor triads while I'm using major triads.
    There should be a tabs function on those forums cause I still can't figure it, lol. Well... I get the soul of it.
  • JukeBoxHeroJukeBoxHero Headliner
    edited January 2009
    Well, I'm glad you got the gist of the tempo.

    I got another riff to share, this one will most likely be one of the parts in Toastman.(A song that I've done lyrics for a in August). It's a simple root bass line but I thought it sounded decent once I got an established riff for it.

    G|--------------------------------------------------------------|
    D|--------------------------------------------------------------| Moderately Fast
    A|--------------5-5-5-7---7-7-7------------------------------|
    E|---0-0-0-0------------------------3-2-3-2------------------|


    G|--------------------------------------------------------------|
    D|--------------------------------------------------------------| Moderately Fast
    A|--------------7-7-7-5---5-5-5------------------------------|
    E|---0-0-0-0-------------------------3-2-3-2----------------|

    Repeat Part 1

    G|--------------------------------------------------------------|
    D|--------------------------------------------------------------| Moderately Fast
    A|--------------7-5-7-4---4-4-4------------------------------|
    E|---0-0-0-0-------------------------3-2-3-2----------------|

    I suppose guitarists could try it too. It may not sound as good however as my last song piece.

    Also, would anyone think it be a good idea to make another sub forum? One for musician related discussion. I think it might useful considering the large number of people considering real instruments because of Rock Band or Guitar Hero.

    Edit:Sorry, forget to add some things.
  • SlashboiSlashboi Opening Act
    edited January 2009
    Gowienczyk;1808179 said:
    I wish I would of tabbed my The Chuck Norris Experience material. ****'d be inane.
    Indeed, Chuck Norris makes everything ****ing unbelievable. In the face-cracking-bullet-in-the-head-****-you way.
  • GowienczykGowienczyk Pooper of Parties
    edited January 2009
    Slashboi;1827773 said:
    Indeed, Chuck Norris makes everything ****ing unbelievable. In the face-cracking-bullet-in-the-head-****-you way.
    Please go in a corner and stay there.
  • SlashboiSlashboi Opening Act
    edited January 2009
    Gowienczyk;1827811 said:
    Please go in a corner and stay there.
    Chuck Norris is on my side. Remember that he doesn't take orders. His friends don't either.

    Remember: The cure for cancer is in Chuck Norris' tears. But Chuck Norris has never cried. Ever.
  • LolicatLolicat Road Warrior
    edited January 2009
    Slashboi;1827823 said:
    Chuck Norris is on my side. Remember that he doesn't take orders. His friends don't either.

    Remember: The cure for cancer is in Chuck Norris' tears. But Chuck Norris has never cried. Ever.
    Chuck Norris thought he was the world's greatest man.... until he met Vladmir Putin, who executed Norris with his infamous 'Ice Lord of the Universe' choke hold.
  • JukeBoxHeroJukeBoxHero Headliner
    edited January 2009
    Gowienczyk;1827811 said:
    Please go in a corner and stay there.
    Out curiosity, did you try out any of the bass lines I made, or do they look meh?
  • GowienczykGowienczyk Pooper of Parties
    edited January 2009
    JukeBoxHero;1827838 said:
    Out curiosity, did you try out any of the bass lines I made, or do they look meh?
    They were alright, not my bag though.
  • SlashboiSlashboi Opening Act
    edited January 2009
    Lolicat;1827837 said:
    Chuck Norris thought he was the world's greatest man.... until he met Vladmir Putin, who executed Norris with his infamous 'Ice Lord of the Universe' choke hold.
    hehe.
  • GowienczykGowienczyk Pooper of Parties
    edited January 2009
    Chuck Norris jokes were only funny in 2006. Seriously, stop killing a below average meme.
  • LolicatLolicat Road Warrior
    edited January 2009
    Gowienczyk;1827869 said:
    Chuck Norris jokes were only funny in 2006. Seriously, stop killing a below average meme.
    If you've ever actually seen the films... It's horrible.
  • SlashboiSlashboi Opening Act
    edited January 2009
    Gowienczyk;1827869 said:
    Chuck Norris jokes were only funny in 2006. Seriously, stop killing a below average meme.
    Chuck Norris can kill two stones with one bird.

    Chuck Norris needs a blow torch and a monkey wrench to mastrubate.
  • LolicatLolicat Road Warrior
    edited January 2009
    I heard Gowie once disproved a genre just by looking at it.
  • GowienczykGowienczyk Pooper of Parties
    edited January 2009
    Lolicat;1827923 said:
    I heard Gowie once disproved a genre just by looking at it.
    What.
Sign In or Register to comment.